12:51

Jun 30
(5)

12:51

Posted by imhavingastroke on

Anyone know what the i think power chords albert hammond jnr plays in the background of 12:51?

Replies for this Forum Topic

mmm i haven't heard that song since i hocked them at a soundwaves :| :? :geek:

Is it true Julian doesnt like singing 12:51 live?
I heard it somewhere,

Talk to menow I'm older
Your friend told you 'cause I told her
Friday nights have been lonely
Change your plans and then phone me.

We could go and get 40s
Fuck goin' to that party
Oh really, your folks are away now?
Alright, let's go, you convenced me.

12:51 is the time my voice
Found the words I sought...
Is it this stage I want?

The world is shutting out...for us.
We were tense for sure,
But we was confident...

Kiss me now that I'm older
I won't try to control you
Friday nights have been lonely
Take it slow but don't worn me

We'd go out and get 40s
Then we'd go to some party
Oh really your folks are away now?
Alright I'm coming...

I'll be right there.

[b]INTRO[/b]

E -12----
B ---12--
G -------
D ------- x2
A -------
E -------

E-------
B--9----
G--9---- let ring
D--9----
A-------
E-------

E -----------------------------------
B -10-------9--------10-------9------
G -9---x16--9---x16--9---x16-9---x16 x2
D -10-------9--------10-------9------
A -----------------------------------
E -----------------------------------

[b]VERSE[/b]

E ----------------------------------------------
B ----------------------------------------------
G ----------------------------------------------
D --------------2-------------------------4----- x2
A -2---x8pm--/-0--x8pm--\--4---x8pm--/-2-x8pm
E -0---------/------------\--2---------/---------

E ----------------------------
B ----------------------------
G --9-------\6-------\4-------
D --9---x8--\6---x4--\4---x4-- x4
A --7-------\4-------\2-------
E ----------------------------

[b]CHORUS[/b]

E -----------------------------
B -10-------9-----------------
G -9---x16--9---x16-----------
D -10-------9-----------------
A ----------------------------
E ----------------------------

pm = palm mute

ummm, i think it's a B C B C (power chords).

So bar the 9th frets on the DGB strings for B, then for C - go up to the 10th frets for the D and B strings and stay on the 9th fret for the G string. 8-)